Název skladby
    
Interpret, skladatel
    
Část textu písně
    

Texty písní:
A B C D E F G H
I J K L M N O P
Q R S T U V W X
Y Z ...

Interpreti:
A B C D E F G H
I J K L M N O P
Q R S T U V W X
Y Z ...



Pearl Jam [-] Transpozice [+]   Tisk textu     


Go - taby

Pearl Jam



Transcribed by: Chris Wilson / Evan Cowan
G1 is open-D tuning -- DADF#AD (low to high)
G2 is dropped-d -- DADGBE
G3 is standard

-|---|---|---|-------------------------------------------------------------|--
-|---|---|---|-------------------------------------------------------------|--
-|---|---|---|-------------------------------------------------------------|--
-|---|---|---|-------------------------------------------------------------|--
-|---|---|---|--------------2p0----------------2p0------------------2p0----|--
-|---|---|---|-0-0-0-0-2-3------3/--0-0-0-2-3------3/--0-0-0-0-2-3------3/-|--
 G1 Bass/Drums                                         with Fill 1            

-|----------------------------------|-----------------------------------------
-|-5-5-5-5-7-7-7-8-8-8-10-8h10p85--|-----------------------------------------
-|----------------------------------|-----------------------------------------
-|----------------------------------|-----------------------------------------
-|----------------------------------|-----------------------------------------
-|----------------------------------|-----------------------------------------
 Fill 1 (G2)                                                                  

-|---------------|----------------------|---------------|---------------------
-|---------------|----------------------|---------------|---------------------
-|---------------|----------------------|---------------|---------------------
-|---------------|----------------------|---------------|---------------------
-|---------------|--------------2p0-----|---------------|---------------------
-|---------------|-0-0-0-0-2-3------3/--|-0--0-0-2--3---|---------------------
 G1 (bass)                          4x                                        

-|-------------------------|--------------------------------------------------
-|-5--5--5--4--5--5--5--4--|--------------------------------------------------
-|-x--x--x--x--x--x--x--x--|--------------------------------------------------
-|-x--x--x--x--x--x--x--x--|--------------------------------------------------
-|-5--5--5--4--5--5--5--4--|--------------------------------------------------
-|-------------------------|--------------------------------------------------
 G1                                                                           

-|-------------------------|--------------------------------------------------
-|-------------------------|--------------------------------------------------
-|-7--7--7--6--7--7--7--6--|--------------------------------------------------
-|-x--x--x--x--x--x--x--x--|--------------------------------------------------
-|-5--5--5--4--5--5--5--4--|--------------------------------------------------
-|-------------------------|--------------------------------------------------
 G2                                                                           

-|----------------------|-----------------------|-----------------------|-----
-|----------------------|-----------------------|-----------------------|-----
-|----------------------|-----------------------|-----------------------|-----
-|----------------------|-----------------------|-----------------------|-----